Band Bio | Forum | Music | Images | Links | Web Team    
Discopedia | Lyrics | Gigography | Guitar Tabs | Gallery    

 

= FrankBlack.Net Pixies Tab =
- Back to Main Tab Page -

Download the song directly here (TXT file) :
www.FrankBlack.net/tabs/pix/doo-gougeaway.txt


Pixies
Song: Gouge Away
Album: Doolittle
Tabbed by: Derek on 1/8/00

 [BASS]
---------------------------------------------------------------------
---------------------------------------------------------------------
-----------------------------------7-7-7-7-7-7-7-7-------------------
-4-4-4-4-4-4-4-4--7-7-7-7-7-7-7-7-------------------4-4-4-4-4-4-4-4--
         Gouge Away                You can gouge away     Stay all

-----------------
-----------------
-7-7-7-7-7-7-7-7-  (back to beginnging)
-----------------
  day,  If you want to...


  [GUITAR 1] palm mute - comes in at :15 seconds
G|-------------------------------------------------------------
D|--6---4-4-4-4--4-4-4-4---------------------------------------
A|------------------------7-7-7-7--7-7-7-7--6-6-6-6--6-6-6-6---
E|--^----------------------------------------------------------
    ^note played 24 times before changing 

  --------------------------------
  -------------------------- and I think he just stays on
  --4-4-4-4--4-4-4-4---6--<< that last note til the verse
  --------------------------------


  [GUITAR 2] - at :29 seconds      at 1:06 seconds:
E|------------------------------|---------------------
B|-----------9^r-----9--11------|--12\11--------------
G|-----5------------------------|----------11---10----
D|--6---------------------------|---------------------
A|------------------------------|---------------------
E|------------------------------|---------------------


[VERSE]                                       
G#         B*                        
 Missy aggravation                         
            E
Some sacred questions                        
                  G#
You stroke my locks                          
          E
Some marijuana                                 
       G#
If you got some

[CHORUS] - play BASS part

Gouge away 
You can gouge away
Stay all day
If you want to

[VERSE 2]
G#                B*
 Sleeping on your belly
              E
 You break my arms
                  G#
 You spoon my eyes
                E
 Been rubbing a bad charm
           G#
 With holy fingers

[CHORUS]

[VERSE 3]
G#              B*
 Chained to the pillars
         E
 A 3-day party
                  G#
 I break the walls 
             E
 And kill us all
           G#
 With holy fingers

       B*
 Gouge away
E                 G# 
 You can gouge away
          E
 Stay all day
        G#
 If you want to

ENDING: B*  E   G#   E   G#


*On the B in the verse he does this:

  B  Bsus   B  Bsus   B             B   Bsus  B  Bsus   B
--------------------------- or    -------------------------
--------------------------- play  --4----3----4----3----4--
--8----9----8----9----8---- like  --4----4----4----4----4--
--9----x----x----x----9---- this: --4----4----4----4----4--
--9----9----9----9----9----       --2----2----2----2----2--
--7----7----7----7----7----       -------------------------

^ = bend
r = release bend
\ = slide
________________________________________________________________________
Gouge Away is about a Bible story/character named Samson. Read the story 
that itís about at the address below. Itís found in Judges, chapter 16.

www.angelfire.com/pq/pixietabs/judges16.html

(copy and paste; itís easier than typing it out!)



- Back to Main Tab Page -

- Suggest a Tab / Correction -
(Sign up to the message board, post it in the appropriate section, thanks!)