Band Bio | Forum | Music | Images | Links | Web Team    
Discopedia | Lyrics | Gigography | Guitar Tabs | Gallery    

 

= FrankBlack.Net Pixies Tab =
- Back to Main Tab Page -

Download the song directly here (TXT file) :
www.FrankBlack.net/tabs/pix/doo-number13baby.txt


Pixies
Song: Number 13, Baby
Album: Doolittle
Tabbed by: Derek


[INTRO CHORD]
    G#m
 ----4----
 ----4----
 ----4----
 ----6----
 ----6----
 ----4----

[VERSE] *just bass
     G*
 Got hair in a girl, 
 That flows to her bones,
 And a comb in her pocket, 
 If the winds get blown,
  
  (4 times)
E----------------------------------
B-----8----8----8----8-------------
G--10---10^--10^--10^--------------
D----------------------------------
A----------------------------------
E----------------------------------
  Stripes on her eyes when she walks slow
  But her face falls down
  When she go, go, go
  G
  Black tear falling on my lazy queen
  Gotta tattooed tit say number 13


[BRIDGE]  
C# D  G
 Viva,  Don't want no blue eyes
    C# D Bb
 La loma,  I want brown eyes
 C# D
 Rica

[CHORUS]
F    E    G
 Iím in a state
     C    G          
 I'm in a state, 
     D#   Bb
 I'm in a state   
     C    G
 I'm in a state
     D#   Bb
 Iím in a state
        C# D
 Iím...


[VERSE]
 G*
 Choir in the yard
 In the house next door
 Where a grandma brought
 Some songs from the shore
  (lead part)
 Six foot girl gonna
 Sweat when she dig
 Stand close to the fire
 When they light the pig
 G
 Standing in her chinos shirt pulled off clean
 Gotta tattooed tit say number 13
 
BRIDGE

CHORUS

BRIDGE

then repeat CHORUS leaving off that C# D part. 
then play CHORUS leaving off the F E G part

 
[Rest of the song] 

I believe there are three guitars - one acoustic, two electrics.

The bass and acoustic guitar play the chorus minus the F E G and C# D parts

Main guitar:
--------------------------------------------------------------------9--9----
--8-8-8-8-8-8-8-8-8-8-8-8-8-8-8-8-8-8-8-8-8-8-8-8-8-8-8-8--\11--11----------
----------------------------------------------------------------------------
----------------------------------------------------------------------------
----------------------------------------------------------------------------
----------------------------------------------------------------------------


--------------------------------------------------------------------9--9--8-
--8-8-8-8-8-8-8-8-8-8-8-8-8-8-8-8-8-8-8-8-8-8-8-8-8-8-8-8--\11--11----------
----------------------------------------------------------------------------
----------------------------------------------------------------------------
----------------------------------------------------------------------------
----------------------------------------------------------------------------

at 2:55 seconds -
----------1-------3-------1-----
--1---3-------3-------3---------
--------------------------------
--------------------------------
--------------------------------
--------------------------------

I didnít tab the other guitar cuz is doesnít do a whole lot, I donít think...
Enjoy.


- Back to Main Tab Page -

- Suggest a Tab / Correction -
(Sign up to the message board, post it in the appropriate section, thanks!)