Band Bio | Forum | Music | Images | Links | Web Team    
Discopedia | Lyrics | Gigography | Guitar Tabs | Gallery    

 

= FrankBlack.Net Pixies Tab =
- Back to Main Tab Page -

Download the song directly here (TXT file) :
www.FrankBlack.net/tabs/pix/tro-aleceiffel.txt


Pixies
Song: Alec Eiffel
Album: Trompe Le Monde
Tabbed by: Derek 

This song uses DROP D TUNING. Tune low E string down a whole step to D

[INTRO] - back and forth bewteen the two parts:

--------------|--------------|--------------|----------------
--9--9--10--9-|--9--9--10--9-|--9--9--10--9-|--9--9--10--9---
--9--9---9--9-|--9--9---9--9-|--9--9---9--9-|--9--9---9--9---
--9--9---9--9-|--9--9---9--9-|--9--9---9--9-|--9--9---9--9---
--------------|--------------|--------------|----------------
--------------|--------------|--------------|----------------
 Pioneer of aerodynamics ...
 They thought he was a real smart alec ...
 He thought big and they called it a phallic ... 
 They didnít know he was panoramic ...


-------------------------|-------------|---------------------
-------------------------|-------------|---------------------
-------------------------|-------------|---------------------
--5--5--5--5--5--5--5--5-|--3--3--3--3-|--10--10--10--10-----
--5--5--5--5--5--5--5--5-|--3--3--3--3-|--10--10--10--10-----
--5--5--5--5--5--5--5--5-|--3--3--3--3-|--10--10--10--10-----
     Little Eiffel               Little Eiffel


[VERSE] - palm mute (the D string doesnít have to be played. Emphasize
          mostly the bottom two strings)

--------------------------------------------------------------
--------------------------------------------------------------
--------------------------------------------------------------
--9--9--9--9--9--9--9--9----12--12--12--12--12--12--12--12----
--9--9--9--9--9--9--9--9----12--12--12--12--12--12--12--12----
--9--9--9--9--9--9--9--9----12--12--12--12--12--12--12--12----
        Little  Eiffel      Stands  in  the  archway


------------------------------------------------------
------------------------------------------------------
------------------------------------------------------
--5--5--5--5--5--5--5--5----2--2--2--2--2--2--2--2----
--5--5--5--5--5--5--5--5----2--2--2--2--2--2--2--2----
--5--5--5--5--5--5--5--5----2--2--2--2--2--2--2--2----
       (little Eiffel)           (little Eiffel)


------------------------------------------
------------------------------------------
------------------------------------------
--0--0--0--0--0--0--0--0----7--7--7--7----
--0--0--0--0--0--0--0--0----7--7--7--7---- right into solo chords...
--0--0--0--0--0--0--0--0----7--7--7--7----  
        Keeping low doesnít make no sense


[SOLO CHORDS] (I havenít figured the actual solo out yet)
-----------------------------------------------------------
-----------------------------------------------------------
-----------------------------------------------------------
-2--2--2--2---2--2--2--2---2--2--2--2---2--2--2--2---------
-2--2--2--2---2--2--2--2---2--2--2--2---2--2--2--2---------
-2--2--2--2---2--2--2--2---2--2--2--2---2--2--2--2---------


----------------------------------------------------------
----------------------------------------------------------
----------------------------------------------------------
-5--5--5--5---5--5--5--5---3--3--3--3---10--10--10--10----
-5--5--5--5---5--5--5--5---3--3--3--3---10--10--10--10---- play again
-5--5--5--5---5--5--5--5---3--3--3--3---10--10--10--10----



[BRIDGE thing]
---------------------------------
---------------------------------
---------------------------------
--2------------------------------
--2------------------------------
--2------------------------------
   Sometimes people can be oh so dense.


-----------------------------------------------------------
-----------------------------------------------------------
-----------------------------------------------------------
--5--5--5--5--5--5--5--5---3--3--3--3---10--10--10--10-----
--5--5--5--5--5--5--5--5---3--3--3--3---10--10--10--10-----
--5--5--5--5--5--5--5--5---3--3--3--3---10--10--10--10-----



--------------|--------------|--------------|----------------
--9--9--10--9-|--9--9--10--9-|--9--9--10--9-|--9--9--10--9---
--9--9---9--9-|--9--9---9--9-|--9--9---9--9-|--9--9---9--9---
--9--9---9--9-|--9--9---9--9-|--9--9---9--9-|--9--9---9--9---
--------------|--------------|--------------|----------------
--------------|--------------|--------------|----------------
     They didnít want it but he built it       anyway


-------------------------|-------------|---------------------
-------------------------|-------------|---------------------
-------------------------|-------------|---------------------
--5--5--5--5--5--5--5--5-|--3--3--3--3-|--10--10--10--10-----
--5--5--5--5--5--5--5--5-|--3--3--3--3-|--10--10--10--10-----
--5--5--5--5--5--5--5--5-|--3--3--3--3-|--10--10--10--10-----
     Little Eiffel               Little Eiffel



[MAIN PART] - play this progression til the end of the song through
              the solo, choir Ahhís, and outro

 -------------------------------------------------------------
 -------------------------------------------------------------
 -------------------------------------------------------------
 --9--9--9--9--9--9--9--9----12--12--12--12--12--12--12--12---
 --9--9--9--9--9--9--9--9----12--12--12--12--12--12--12--12---
 --9--9--9--9--9--9--9--9----12--12--12--12--12--12--12--12---
        Little  Eiffel      Stands  in  the  archway


-----------------------------------------------------
-----------------------------------------------------
-----------------------------------------------------
--5--5--5--5--5--5--5--5----2--2--2--2--2--2--2--2---
--5--5--5--5--5--5--5--5----2--2--2--2--2--2--2--2---
--5--5--5--5--5--5--5--5----2--2--2--2--2--2--2--2---
       (little Eiffel)           (little Eiffel)


-----------------------------------------
-----------------------------------------
-----------------------------------------
--0--0--0--0--0--0--0--0---7--7--7--7----
--0--0--0--0--0--0--0--0---7--7--7--7----
--0--0--0--0--0--0--0--0---7--7--7--7----
        Keeping low doenít make sense,


Keeping low donít make no SENSE!
(little Eiffel, little Eiffel)
Little Eiffel stands in the archway...

  [SOLO thing]
E-----------------------------------------------------------------------
B-----------------------------------------------------------------------
G-5-5---4-4---5-5---4-4---5-5---4-4---2-2---0-0---5-5---4-4---2-2---0-0-
D-----------------------------------------------------------------------
A-----------------------------------------------------------------------
E-----------------------------------------------------------------------


E-----------------------------------------------|-------------
B-----------------------------------------------|------------- back to
G-----------------------------------------------|-5-5---4-4--- beginning
D--4-4---2-2---0-0------------------------------|------------- 
A-------------------3-3---2-2---3-3---2-2---3-3-|-------------
E-----------------------------------------------|-------------

[OUTRO]

Oh Alexander I see you beneath the archway of aerodynamics (repeat alot)

______________________________________________________________________
for these chords:     I believe they might actually be these:
---------               --0---0--
---------               --0---0--
---------               --0---0--
--3---5--               --3---5--
--3---5--               --3---5--
--3---5--               --3---5--

send any corrections if you think I got something wrong. 


- Back to Main Tab Page -

- Suggest a Tab / Correction -
(Sign up to the message board, post it in the appropriate section, thanks!)