Band Bio | Forum | Music | Images | Links | Web Team    
Discopedia | Lyrics | Gigography | Guitar Tabs | Gallery    

 

= FrankBlack.Net Pixies Tab =
- Back to Main Tab Page -

Download the song directly here (TXT file) :
www.FrankBlack.net/tabs/pix/tro-planetofsound.txt


Pixies
Song: Planet of Sound
Album: Trompe Le Monde
Tabbed by: Derek 


DROP D TUNING. (tune low E string DOWN to D)

^ = bend slightly

 [Main Guitar Part]
E------------------2-------------------------
B------------------3-------------------------
G------------------2-------------------------
D--7-7--7-7--7-7---0-------------------------  (repeat over and over)
A--7-7--7-7--7-7---0---6^--0--3^--0----------
D--7-7--7-7--7-7---0----------------3^---0---
 
  [SOLO]
E------------------------------------------------------------
B------------------10~---------------------------------------
G----------10---------------10------10-------12----10--------
D--12--12------12-------12------12------12---12--------12----
A------------------------------------------------------------
E------------------------------------------------------------


E-------------------------------------------------------
B------------------10~---------------10--12---12^--10---
G----------10---------------10-------10--12-------------
D--12--12------12-------12------12----------------------
A-------------------------------------------------------
E-------------------------------------------------------


E-----------------------------------------------------------
B------------------10~-------------------------------12-----
G----------10---------------10------10--12---12--14---------
D--12--12------12-------12------12--------------------------
A-----------------------------------------------------------
E-----------------------------------------------------------


E------10------10-------10--------
B--13^-----13^-----13^------13^---
G---------------------------------
D---------------------------------
A---------------------------------
E---------------------------------

_____________________________________________________________________
This chord (A) can also be played like this:
-------   -------
-------   -------
-------   ---2---
---7--- = ---2--- 
---7---   ---0---
---7---   -------

^ = bend slightly
LYRICS:
One fine day in my odd past
I picked me up a transmission
I turned the fission ignition
went looking for the broadcaster
and when I first touched some ground
they simply told me leave
was kind of hard to believe
'cause there was not one around

this ain't the planet sound
this ain't the planet sound
this ain't the planet sound
this ain't the planet sound

I had a talented wine
that land o' classical gas
and on the planet of glass
they sent me skipping through time
I got to somewhere renowned
for it's canals and color of red
and lots of guys who shook their heads
rhythmically to resound

this ain't the planet of sound
this ain't the planet of sound
this ain't the planet of sound
this ain't the planet of sound
this ain't no rock and roll town
this ain't no fu----í around
this ain't no planet of sound

I met a guy in a rover
he said its one more over
Itís just there where your bound

this ain't the planet of sound
this ain't the planet of sound
this ain't the planet of sound
this ain't the planet of sound.


- Back to Main Tab Page -

- Suggest a Tab / Correction -
(Sign up to the message board, post it in the appropriate section, thanks!)