Band Bio | Forum | Music | Images | Links | Web Team    
Discopedia | Lyrics | Gigography | Guitar Tabs | Gallery    

 

= Frank Black Tab =
- Back to Main Tab Page -

Download the song directly here (TXT file) :
www.FrankBlack.net/tabs/txt/bld-coldheartofstone.txt


Frank Black and the Catholics
Song: Cold Heart of Stone
Album: Black Letter Days
Tabbed by: Derek (proverbialcereal@msn.com)

[INTRO]*

G  F#   A   E   G  Bm  G  Bm

[CHORUS]
G             F#   
 Winter blows through my coat 
A                 E
 Itís chilling my bones 
G                Bm
 But it does not compare 
G                      Bm
 To your cold heart of stone 

[VERSE]
G                 Bm
 I pledged you my love 
G                  Bm
 And I gave you my car 
G                        Bm
 Now youíre parking with him 
A                         G
 Yeah I know where you are 

[CHORUS]
G             F#   
 Winter blows through my coat 
A                 E
 Itís chilling my bones 
G                Bm
 But it does not compare 
G                      Bm
 To your cold heart of stone 

[VERSE 2]
G                 Bm
 your favorite perfume 
G                  Bm
 Well I gave you a tub 
G                  Bm
 Now your stepping out 
A                   G
 For your rubba dub dub 

[BRIDGE]
D            Bm  G  F#    A   
 If ever you need  donít call 
D            Bm  G  F#    A   
 If ever you need  donít call 

G  F#  A  E  G  Bm  G   Bm

[VERSE 3]
G             Bm
 I once had a dog 
G                 Bm
 Who ran from his home 
G                     Bm
 But that wasnít even close 
A                      G
 To your cold heart of stone 

-CHORUS 2x
-BRIDGE 2x

[OUTRO]

G  F#  A   E   G  Bm  G  Bm (2x)

G  Bm  G  Bm 

_______________________________________________________________________
if you want to mix the melody line in with the rhythm guitar, do
something like this:

E-------3--2--0-------2-2-------------0---0--------------2-----2--
B---0-----------0-----2-2-----2-2--3------0------3--3/5----0---3--
G---0--------------3--------2-------------1--------------------4--
D---0--------------4--------2-------------2--------------------4--
A---2--------------4--------0-------------2--------------------2--
E---3--------------2----------------------0-----------------------
    G              F#       A             E    G               Bm

E--------------------2------
B---0---3-3-3-3--0---3------
G---0----------------4------
D---0----------------4------
A---2----------------2------
E---3-----------------------
    G                Bm

you can hit more notes within the chords if you prefer




- Back to Main Tab Page -

- Suggest a Tab / Correction -
(Sign up to the message board, post it in the appropriate section, thanks!)