Band Bio | Forum | Music | Images | Links | Web Team    
Discopedia | Lyrics | Gigography | Guitar Tabs | Gallery    

 

= Frank Black Tab =
- Back to Main Tab Page -

Download the song directly here (TXT file) :
www.FrankBlack.net/tabs/txt/bside-c-breathless.txt


Frank Black
Song: Breathless
Originally done by: Otis Blackwell
Tabbed by: Derek (Proverbialcereal)

Intro:  C [4x]  F

[VERSE 1]
F                          C
 Now if you love me, baby, please donít tease
C                       F
 If I can hold you then let me squeeze
Bb
 My heart goes Ďround and Ďround
F
 My love comes tumbling down

[CHORUS]
 C      Bb     (stop)
 You... leave me

 (Oh, sorry Iím just..)
 C
 Breathless

[VERSE 2]
   F                  C
 I shake all over and you know why
C                       F 
 Iím sure itís love and thatís no lie
Bb
 And when you call my name
F
 I burn like wood inflamed

[CHORUS]
 C      Bb     (stop)
 You... leave me
           C
 Breathless

[REFRAIN]
C         F
 Oh baby, hmm crazy, 
C
 Your much too much
F
 I canít love you enough
Bb
 Itís alright, you hold me tight
C
 When you love me you love me right
 F                C
 Come on baby now donít be shy
C                        F
 This love was meant for you and I
Bb
 Wind, rain, sleet or snow
F
 I will be wherever you go

[CHORUS]
 C       Bb    (stop)
 You... leave me

 Breathless

[SOLO]
--13--13--13---16--16--16---16--16--16---13---16--16--16--16---13--13--
--13--13-------15--15--15---15--15--15--------15--15--15--15---13--13--
-----------------------------------------------------------------------
--------------|-I think there is some|---------------------------------
--------------|-bending action going-|---------------------------------
--------------|-on here--------------|---------------------------------

I started the solo and realized it would take along time to figure it 
out and tab it. So Iím holding off for now.

Chords: F  Bb  F  C  Bb  F (2x) (12 bar blues stylee... I think)


[REFRAIN]

[CHORUS]
 C      Bb                           F 
 You... leave me ......... Breathless

__________________________________________________________________
These are the RIFFS that are played along with most of the chords:
(They arenít played in the chorus)  
 F                         C
-------------------------||--------------------------
-------------------------||--------------------------
-------------------------||--------------0--0--2--0--
-------------------------||--------2--2--------------
--------0--0--3--3--5--3-||--3--3--------------------
--1--1-------------------||--------------------------

 Bb
---------------------------
---------------------------
--------------3--3--5--3---
--------0--0---------------
--1--1---------------------
---------------------------


- Back to Main Tab Page -

- Suggest a Tab / Correction -
(Sign up to the message board, post it in the appropriate section, thanks!)