Band Bio | Forum | Music | Images | Links | Web Team    
Discopedia | Lyrics | Gigography | Guitar Tabs | Gallery    

 

= Frank Black Tab =
- Back to Main Tab Page -

Download the song directly here (TXT file) :
www.FrankBlack.net/tabs/txt/bside-c-dukeofearl.txt


Frank Black
Song: Duke Of Earl
Originally by: ...
Hello Recording Club
Tabbed by: Scott Wright (craigwright@druridge.swinternet.co.uk)
Revisions made 4/19/03 by Derek

Intro 
(Play this once and then go straight into the verse chords)
e|-------------------------------------------|
B|-------------------------------------------|
G|-------------------------------------------|
D|-3-3-3---3-2ó0-0-0ó0-3---------0---------0-|
A|-----------------------1-1-1-1---3-3-3-3---|
E|-------------------------------------------|

Verse
   F          Dm        Bb7          C
e|-1-1-1-1---1-1-1-1--------------------------|
B|-1-1-1-1---3-3-3-3----3ó3-3--3-3---3-3-3-3--|
G|-2-2-2-2---2-2-2-2----1ó1-1--1-1---5-5-5-5--|
D|-3-3-3-3---0-0-0-0----3ó3-3--3-3---5-5-5-5--|
A|-3-3-3-3--------------1ó1-1--1-1---5-5-5-5--|
E|-1-1-1-1------------------------------------|

As I, I walk through this world
Nothing can stop the duke of Earl 
And you youíre my girl
And no one can hurt you oh no


[Chorus]
   F  Dm Bb C          C  Bb  A  G   F
e|-1--1----------|   |---------------1--|  on that walk down,
B|-1--3--3--5----|   |-5--3----------1--|  it's more just the
G|-2--2--3--5----|   |-5--3---2--0---2--|  the root notes than
D|-3--0--3--5----|   |-5--3---2--0---3--|  the full chords that
A|-3-----1--3----|   |-3--1---0--2---3--|  are played
E|-1-------------|   |-----------3---1--|

    F                  Dm       
Yes Iím, yes Iím gonna love you oh ooh
                    Bb
Nothing can stop me now 
                      C       C  Bb  A  G  F (walk down)
cause Iím the duke of Earl so hey


[Verse 2] 
F           Dm                 Bb7
 And when I hold you youíre my duchess 
                C
The duchess of Earl
      F                Dm
Weíll walk thorough my dukedom 
      Bb7              C
And a paradise we will share


[Chorus] - same chords
Yes Iím, oh Iím gonna love you oh ooh 
Come on let me hold you darling 
Cause Iím the duke of Earl


F  Dm  Bb7   C  (x2 over Ooos)

[Chorus]

Yes Iím, oh Iím gonna love you 
Come on let me hold you darling
Cause Iím the duke of Earl

[Outro]
F  Dm  Bb7  C  Bb  A  G

F  Dm  Bb7  C  Bb  A  G F# F


NOTE: Dm is played as a barre chord some of the time

eadgbe
x57765



- Back to Main Tab Page -

- Suggest a Tab / Correction -
(Sign up to the message board, post it in the appropriate section, thanks!)