Band Bio | Forum | Music | Images | Links | Web Team    
Discopedia | Lyrics | Gigography | Guitar Tabs | Gallery    

 

= Frank Black Tab =
- Back to Main Tab Page -

Download the song directly here (TXT file) :
www.FrankBlack.net/tabs/txt/bside-c-remake-remodel.txt


Frank Black
Song: Re-Make/Re-Model
From: 
Originally done by: Roxy Music
Tabbed by: Derek (ProverbialCereal)

 [INTRO]
   F
E-----------|-----------|--------------|
B--1---1--1-|--1---1--1-|--1--1---1--1-|
G--2---1--2-|--2---1--2-|--2--2---1--2-|
D--3--------|--3--------|--3--3--------|
A--3--------|--3--------|--3--3--------|
E-(1)-------|-(1)-------|-(1)(1)-------| etc.


F       G#           D#               F
 Well I tried but I could not find a way
F        G#         D#            
 Looking back all I did was look away
F     G#          D#               F
 Next time is the best time we all know
F             G#    D#                  F
 But if there is no next time where to go

F           G#       D#               F
 Shes the sweetest queen Ive ever seen (CPL593H)
F             G#     D#           F
 See here she comes, see what I mean? (CPL593H)
F        G#              D#                F
 I could talk talk talk, talk myself to death
F         G#           D#              F
 But I believe I would only waste my breath,  Ooh show me


[SOLO] - implied chords:F G# D#

bass line:
g----------------------------------------------------
d----------------------------------------------------
a----------------------------------------------6--8--
e--1--1--1---1--4--4--4--4---6--6--6--6--8--8-------- etc.
                                               (w/ variations)

F  G#  D#  F         D# D#  F  G#  D#   F
            (CPL593H)                     (CPL593H)


F       G#           D#               F
 Well I tried but I could not find a way
F        G#         D#            
 Looking back all I did was look away
F     G#          D#               F
 Next time is the best time we all know
F             G#    D#                  F
 But if there is no next time where to go

F           G#       D#               F
 Shes the sweetest queen Ive ever seen (CPL593H)
F             G#     D#           F
 See here she comes, see what I mean? (CPL593H)
F        D#              A#      G#          F
 I could talk talk talk, talk myself to death
F         G#           D#              F
 But I believe I would only waste my breath


F  D#  F  (drum roll)

F  G#  D#  F (bass fill*)

F  G#  D# (lyle fill*)

F  G#  D#
____________________________________________________________________
*bass fill
g--------3--5--8--10--
d--3--6---------------
a---------------------
e---------------------

*lyle fill (i think it's right)
e-----------------------------------------
b--6-6--6-6--6-6--6-6--6-6--6-6--6-6--6---
g--8-8--7-7--6-6--7-7--8-8--7-7--6-6--7---









- Back to Main Tab Page -

- Suggest a Tab / Correction -
(Sign up to the message board, post it in the appropriate section, thanks!)