Band Bio | Forum | Music | Images | Links | Web Team    
Discopedia | Lyrics | Gigography | Guitar Tabs | Gallery    

 

= Frank Black Tab =
- Back to Main Tab Page -

Download the song directly here (TXT file) :
www.FrankBlack.net/tabs/txt/cath-allmyghosts.txt


Frank Black and the Catholics
Song: All My Ghosts 
Album: Frank Black and the Catholics
© 1998 Frank Black, (p) 1998 spinART records
tabbed by: Derek (ProverbialCereal)

intro: F B C Ab, (mess up) F B C Ab Bb, F B C Ab Bb B...

Eb     Ab               C               Ab  Eb
  If I could live to be several hundred
        Ab              C
I could take a walk and really wander
Ab     Bb     Eb
Really wonder
Eb    Bb Ab                           F  
  All my ghosts on every sea in every land
C         Ab 
Who needs that now? (3x)
Eb         Ab              C                Ab     Eb
  Have you heard about the heavenly angels (oh ohh oh)
         Ab                C
How they came to earth and met some ladies
     Ab        Bb    Eb
With whom they mated?
    Bb    Ab                        F
And their young became giants every one
C         Ab             Eb F Eb  
Who needs that now? (3x)

Eb
  I was driving across the valley floor
Bb
  Going past a scene of gore
Ab
  Something that had ended here                
Eb                       Bb       <--lyle's note makes it a seventh chord
  Then I stopped in at a porno store
Eb
  And I found among the pictures there
Bb
  A vision that was very fair
Ab
  Just a moment from yesteryear
Eb                      Bb
  All I could do was stare

solo: same rhythm and chords as the verse and chorus

Eb        Ab             C            Ab     Eb
  I had a date for the eleventh hour (oh ohh oh)
       Ab                 C
And we took a tour of The Seven Horrors
Ab        Bb      Eb
Plus just one more
     Bb  Ab                      F
Hank the Eighth was a duplicated man
C         Ab
Who needs that now? (3x)

END ON Eb

The C in this song could be played C minor at times. I heard a live version 
where it sounded as if Frank was alternating between C major and C minor.
_____________________________________________________________________________
And here is the Green Acres theme:

By Vic Mizzy, Unison Music Co.

E---------0-2s4---4-5-------------------------0--2--0---0---------------
B-----0-2---------------------0--2--0---0--2---------------2--0--0------
G---1----------------------1----------------------------------------1---
D-2---------------------2----------------------------------------------2
A-----------------------------------------------------------------------
E-----------------------------------------------------------------------
       "Ok Iím ready"
             
         E                   B7
E------------------------0-------------2--------0--0--------2--
B------------------0-------------------------0-----------0-----
G---------------1-----1------------2------2-----------2--------
D-----------2-------------------1------------------------------
A----------------------------2---------------------------------
E--------0-----------------------------------------------------
  "Fresh air"              "Clean Air"

E--11s12------------------11-12----
B--------12-12--14--12------------
G----------------------------------
D----------------------------------
A----------------------------------
E----------------------------------


NOTE: I may not have every single note tabbed, but it should be close 
enough.



- Back to Main Tab Page -

- Suggest a Tab / Correction -
(Sign up to the message board, post it in the appropriate section, thanks!)