Band Bio | Forum | Music | Images | Links | Web Team    
Discopedia | Lyrics | Gigography | Guitar Tabs | Gallery    

 

= Frank Black Tab =
- Back to Main Tab Page -

Download the song directly here (TXT file) :
www.FrankBlack.net/tabs/txt/dw-fieldsofmerigold.txt


Frank Black and the Catholics
Song: Fields of Merigold
Album: Devil's Workshop
Tabbed by: Derek


 [INTRO]
E----------------------------------------------
B----------------------------------------------
G---4--4--4---------------4--4-------------8---
D---5--5--5----------7----5--5----------7------
A---5--5--5-------8-------5--5-------8---------
E---3--3--3---/7----------3--3---/7------------
    G


C                  G
 Not for sugar not spice 
Am                   G (RIFF 3)
 Not for fools paradise 
F                  Em (RIFF 4)
 Not for giving advice 
C                 G (RIFF 2)
 Not for saving a soul 
C                      G
 Theres no reason for some 
Am               G (RIFF 3)
 Now Im getting numb 
F                    Em (RIFF 4)
 Now that moment has come 

C  G  Am

                F
hey how about a drum roll
         G
 for the Fields of Marigold? 

[CHORUS]
C    G/F#              
 Goodbye   
G    F
 Im blowing a kiss to you 
C   G/F#
 So long 
G F
 Wonderful being you 
C    G/F#
 Goodnight 
G      F                  Am                  G  [INTRO]
 well soon be sleeping on the Fields of Marigold 


[SOLO]

C  G  Am  G  F  Em   C  G  (2x)


C                  G
 Is it time to get up?
Am                   G (RIFF 3)
 Now youre breaking up 
F                      Em (RIFF 4)
 Though I know we are tough 
C                       G    Am
 I thought wed lose control 
F     G
 and end up in the freezing cold 


[CHORUS]
C    G/F#              
 Goodbye   
G    F
 Im blowing a kiss to you 
C   G/F#
 So long 
G F
 Wonderful being you 
C    G/F#
 Goodnight 
G      F                  Am                  G  (RIFF 2)
 well soon be sleeping on the Fields of Marigold 


[repeat chorus minus RIFF 2]

____________________________________________________________________________
   RIFF 3         RIFF 4		  RIFF 2
E-------------| ----------------------| -------------------------
B-------------| ----------------------| -------------------------
G----------0--| -------------------8--| -----------8-------------
D-------4-----| --0h2--0---------7----| --------7----------------
A----5--------| ----------3----8------| ------8------------------
E--3----------| -------------7--------| ---7---------------------

G/F#:
E------
B------
G------
D------
A--5---   (this chord may just be D7. but i think someone is playing this)
E--2---
  

- Back to Main Tab Page -

- Suggest a Tab / Correction -
(Sign up to the message board, post it in the appropriate section, thanks!)