Band Bio | Forum | Music | Images | Links | Web Team    
Discopedia | Lyrics | Gigography | Guitar Tabs | Gallery    

 

= Frank Black Tab =
- Back to Main Tab Page -

Download the song directly here (TXT file) :
www.FrankBlack.net/tabs/txt/fb-dontyarileem.txt


Frank Black
Song: Don't Ya Rile 'Em
Album: Frank Black
 1993 4AD
Tabbed by: Jason,  Solo: Derek

Intro
e----------------|-------------------|----------------|
b-1-1-1-1--1-1-1-|-1-1-1-1--1-1-1--0-|-1-1-0-1--0-1-1-|
g-2-2-0-2--0-2-0-|-2-2-0-2--0-2-2--0-|-0-0-0-0--0-0-2-|
d----------------|-------------------|----------------|
a----------------|-------------------|----------------|
e----------------|-------------------|----------------|


Verses
    Am                   C
I'm seeing how boring it gets
F                        Am    G
Back where the sun never sets
      C                 F
And a day is really two days
      Am                 C
I was feeling so tired inside
   F                          Am   G
My eyes were stitched open so wide
       C                   F
It was making me kind of uptight
Am C       F
   Oh yeah
Am  G     C  F
All right

Choruses
                  F5
And the power man says
         E5*  D5  Bb5
Don't ya rile 'em
       A5 G5  F5
Going asylum
         E5*  D5  Bb5
Don't ya rile 'em
       A5 G5  
Going asylum
  F5    Bb5  G5
Tonight 
  C5    A
Tonight


[SOLO] - right channel

e---------------------12-12----13--12-----15--12-------
b--13-----13----------------13--------13----------13---
g------12----12----------------------------------------
d----------------14------------------------------------
a------------------------------------------------------
e------------------------------------------------------


e--17----15-----------------------------------------
b-----13-----13/15\13--13-13-----13--12-12--13------
g-----------------------------12----------------12--
d---------------------------------------------------
a---------------------------------------------------
e---------------------------------------------------


e---------10------------15---------------------------
b-----11^-----------13----------------12--13---------
g--12---------12-----------12------14--------12-\10--
d----------------------------------------------------
a----------------------------------------------------
e----------------------------------------------------


e-----------------------------------------------
b-----------------------------------------------
g--10-\9--9-------------------------------------
d------------12-12--10------10-10-10-10h12--10--
a-----------------------12----------------------
e-----------------------------------------------

^ = bend
/  \ = slides


Chords are the same for both verses, same for the choruses, only played
 twice as long the second time.

I've been working my way back to sane
It's coming back to me again
Old navigational ways
But back in time where I belong
They're playing my favorite song
That whistling meteorite

*E5 played on seventh fret of the A string

- Back to Main Tab Page -

- Suggest a Tab / Correction -
(Sign up to the message board, post it in the appropriate section, thanks!)