Band Bio | Forum | Music | Images | Links | Web Team    
Discopedia | Lyrics | Gigography | Guitar Tabs | Gallery    

 

= Frank Black Tab =
- Back to Main Tab Page -

Download the song directly here (TXT file) :
www.FrankBlack.net/tabs/txt/fb-iheardramonasing.txt


Frank Black
Song: I Heard Ramona Sing
Album: Frank Black
 1993 4AD Records,  1993 Frank Black
Tabbed By: Scott Wright (CRAIGWRIGHT@druridge.swinternet.co.uk)

Frank tunes his high E string in unison with his B string on this song 

Intro (chords tabbed by Derek)
------------------------------------------
-3--2--3---0--1--0--1---------------------
-2--2--2---0--0--0--0---2--2--2--2--2--2--
-0--0--0----------------3--3--3--3--3--3--
------------------------------------------
------------------------------------------

Or you can play it like this for a fuller sound:
------------------------1--1--1--1--1--1--
-3--2--3---0--1--0--1---1--1--1--1--1--1--
-2--2--2---0--0--0--0---2--2--2--2--2--2--
-0--0--0---2--2--2--2---3--3--3--3--3--3--
-0--0--0---3--3--3--3---3--3--3--3--3--3--
------------------------1--1--1--1--1--1--
(chord names)    
D  Dmaj7  Cmaj7     C    F

(Lead)

E-14-14-15-14-15-15~-15~----
B--------------------------- X2
G---------------------------

E---------------------------
B-15-15--17-15-17-17~-17-15- X2
G---------------------------

E-----18-17-15-12----18-17-15-20---18-17-15-11---
B-15---------------------------------------------
G------------------------------------------------

E-18-17-15-13--18-17-15-10---18-17-15-12---11----
B------------------------------------------------
G------------------------------------------------

E--12\0--
B--12\0--
G--14\0--
D--14\0--
A--12\0--
e--12\0--

E----------------------------------
B---8-8-8---8-8-8---8-8-8----------	X2
G-7-------7-------9----------9-9---
D--------------------------7-------

E--------------:-------------------------------------------
B--------------:-------------------------------------------
G--17-16-14-14-:------7--5--4--4--5--7-------7--5--4--4\0--
D--------------:--5-5------------------5---5---------------
A--------------:-------------------------------------------
e--------------:-------------------------------------------


D       C       F
  I had so many problems
D            C        F
  And then I got me a Walkman
D          C          F
  I really liked it a lot and
D                   C           F
  They walked right in and they solved them
D                   C           F
  They walked right in and they solved them

G           C
  I heard Ramona sing
Am            Cm
  And I heard everything
F                   G
  The speed they're traveling
C              Cm
  They are the only thing
A         Em
  Ramona
                            G
  There were moments in the night
C            Em
  It was all right
F                           G
  There were moments in the night

G           C
  I heard Ramona sing
Am            Cm
  And I heard everything
F                   G
  The speed they're traveling
C              Cm
  They are the only thing
A         
  Ramona

E-------------------------
B--7h6h7h6----------7--6-- (Repeats)
G----------h7--7--5-------
D-------------------------

          D               C               F
  I don't care if they're real or they're pseudo
          D            C       F
  I don't care if they get any higher
D           C         F
  I hope if someone retires
D            C        F
  They pull another menudo
D            C        F
  They pull another menudo
D            C        F (with lead 2)
  They pull another menudo
D            C        F
  They pull another menudo

D C F
D C F

F                           G
  There were moments in the night
C            Em
  It was all right
F                           G
  There were moments in the night

G           C
  I heard Ramona sing
Am            Cm
  And I heard everything
F                   G
  The speed they're traveling
C              Cm
  They are the only thing
A         
  Ramona

---------------------------------------------------------------------
That's it all I think, please e-mail any corrections.
By the way in case you didn't know this song is a tribute to the Ramones.
Enjoy!

- Back to Main Tab Page -

- Suggest a Tab / Correction -
(Sign up to the message board, post it in the appropriate section, thanks!)