Band Bio | Forum | Music | Images | Links | Web Team    
Discopedia | Lyrics | Gigography | Guitar Tabs | Gallery    

 

= Frank Black Tab =
- Back to Main Tab Page -

Download the song directly here (TXT file) :
www.FrankBlack.net/tabs/txt/fb-placesnamedafternumbers.txt


Frank Black
Song: Places Named After Numbers
Album: Frank Black
 1993 4AD
Tabbed by: Jason
                                                (1st time)
  E       C              E       C    G         E       C
e----------------------|----------------------|---------------------
b----------------------|----------------------|---------------------
g----------------------|----------------------|---------------------
d-9-6------------------|-9-6--------------5-4-|-9-6-----------------
a-----7--------9sl\7-7-|-----7----------------|-----7---------------
e-------7-8-10---------|-------7-8-10-3-2-----|-------7-8-10-12-14--

  (2nd time)
  E       C
e---------------------
b---------------------
g---------------------
d-6-------------------
a---7-----------------
e-----7-7-8-10-12-14--

G  E  
G  E  
Am  C  
G  E

Verse (palm mute throughout whole verse)
G5             E5
Beyond below above
A5              G5
A gravity that slumbers
G5            G5          E5
At the center of
A5                   G5
Places named after numbers
G5                  E5
A different kind of love
A       C#m
She was right
A       C#m
She was right there
A       C#m                 D      F
She was right there all the time
F                  Am    E
Collapsing all the way


And though it seems from here
That she was never there
Light beams disappear
Into her blackened hair
I wonder if they reappear
She was right 
She was right there
She was right there all the time
Collapsing all the way


- Back to Main Tab Page -

- Suggest a Tab / Correction -
(Sign up to the message board, post it in the appropriate section, thanks!)