Band Bio | Forum | Music | Images | Links | Web Team    
Discopedia | Lyrics | Gigography | Guitar Tabs | Gallery    

 

= Frank Black Tab =
- Back to Main Tab Page -

Download the song directly here (TXT file) :
www.FrankBlack.net/tabs/txt/fb-tenpercenter.txt


Frank Black
Song: Ten Percenter
Album: Frank Black
© 1993 4AD
Tabbed by: Derek (proverbialcereal@msn.com) 


 [Nice intro]
E---------------------|----------------------------|--------------------
B---------------------|----------------------------|--------------------
G---------------------|----------------------------|--------------------
D----------9----------|--7---9---9h11---9---7---7--|----------9---------
A------7-------7---8--|--7---7---7--7---7---8---7--|------7-------7---8-
E--5-----------5---5--|----------------------------|--5-----------5---5-
  
E-----------------------------------------------|-----------------------
B-----------------------------------------------|-----------------------
G-----------------------------------------------|-----------------------
D-----------------7---9---9h11---9--10---9---7--|----------9------------
A-----------------7---7---7--7---7---8---7---7--|------7-------7---8----
E-----------------------------------------------|--5-----------5---5----
  ďAw thatís niceĒ
 
E----------------------------------------------
B----------------------------------------------
G----------------------------------------------
D--7---9---9h11---9---7------------------------
A--7---7---7--7---7---7---9--9--7--9--9--9-----
E-------------------------7--7--5--7--7--7-----

[Verse]
   A                            <--- rhythm
E------------------------------- 
B--13---10---8---10--10--10----- <-- lead (played 2x)
G-------------------------------
D--10----7---5----7---7---7-----
A-------------------------------
E-------------------------------

A                        G          C               D
 Iím just another ten percenter, My mind is like an ocean,
   A               G          C              D
My mind is like an ocean, Iím hanging in the harbor,
         A
Iím just drifting, letting out the line
    
Iím letting out the drifting line
    A              G          C                D
Iím trying to be a guy, Whoís hailing from Ann Arbor,


  [BRIDGE]
E----------------------|-----------------|-----------------------
B-----------2----------|------2----------|------2----------2-----
G---------------2------|----------2------|----------2---0-----0--
D-------2-----------2--|--3-----------3--|--4--------------------
A----------------------|-----------------|-----------------------
E----------------------|-----------------|-----------------------
 Making jerk ...
 Getting perk ...

E-----------------------|----------------------------------------
B-----------10----------|------10--------------------------------
G---------------10------|----------10---10---10------------------
D-------10----------10--|--11-----------13-------13--------------
A-----------------------|----------------------------------------
E-----------------------|----------------------------------------
 And itís good...
 Yeah I would...                                ...Iím a jerk!

[VERSE 2]

If youíre getting cotton mouth, you better have some water
Sucking syrup and soda, Youíre going to just get hotter,
But if you want to wile awhile, but if you want to wile awhile.
Oh suck a syrup and soda, Oh dance, oh sons and daughters

-BRIDGE-

[BRIDGE part 2] 
           E  F  F#  G 
Making jerk
             C  C#  D#
And itís good
        E  F  F#  G
Getting perk
          C  D  D#             A
Yeah I would        Iím a jerk

       A          G         C               D
If you got cotton mouth, my mind is like an ocean
   A               G         C               D
My mind is like an ocean, my mind is like an ocean

BRIDGE part 2 chords over this:
Iím a Jerk
Making Jerk,
Soda Jerk,
And itís good, 
Jerk! Jerk! Jerk! Jerk! Jerk!

Then play the first Bridge parts until fade. 


- Back to Main Tab Page -

- Suggest a Tab / Correction -
(Sign up to the message board, post it in the appropriate section, thanks!)