Band Bio | Forum | Music | Images | Links | Web Team    
Discopedia | Lyrics | Gigography | Guitar Tabs | Gallery    

 

= Frank Black Tab =
- Back to Main Tab Page -

Download the song directly here (TXT file) :
www.FrankBlack.net/tabs/txt/pist-iloveyourbrain.txt


Frank Black and the Catholics
Song: I Love Your Brain
Album: Pistolero
1999 Frank Black
Tabbed by: Derek (ProverbialCereal)

INTRO: (w/ some raw distortion)

E-----0------0---|----0--------|----0--1--0-|-----0--1--0---
B-------1--3---1-|------3--1---|----3--3--3-|-----0--0--0---
G----------------|-----------0-|-2----------|---------------
D--2-------------|-------------|-0----------|--2------------
A--0-------------|-3-----------|------------|--2------------
E----------------|-------------|------------|--0------------  (2 times)
   Am              C             Dm            Em        <== form
 
   
Am  G  F 

Am  G  D/F#

C  G  F*  Fm (play these chords over this): 
E------3--------3----|----3-------5--3-|------1--------3--1-|-
B---------5--------5-|-------3---------|---------1----------|-
G-4h5--------4-------|-4-------4-------|-4s2--------2-------|-
D--------------------|-----------------|--------------------|-
A--------------------|-----------------|--------------------|-
E--------------------|-----------------|--------------------|-

------4--------6--4-------
---------4-----------4----
-2s5--------5----------5--
--------------------------
--------------------------
--------------------------

Am Am  Am D D C B  
                 play these chords 4 times through then go into vs.
F F  F G G F E

VERSE:
       Am                      D C B
He was hurting for the answers
       F                        G F E
He was serving up the questions
       Am                   D C B
He was searching for a guru 
       F                     G F E
He was lucky that he knew you

BRIDGE:
Am          G F
 When i saw your fine physique 
     Am        G      D/F#
I was into you like a train
      C                G                 F*
And I love it when you speak you're so urbane

CHORUS:
                C     G G# F
Oh, i love your brain
                 C    G G# F
Yes, i love your brain
                 C    G G# 
Ooh, i love your brain
          Bb       F
I'm gonna say it again
          C    G G# F
Love your brain
                 C    G G# F
It's a beautiful brain
                     C    G G# 
I wanna be with your brain
        Bb              F
I wanna sleep with your brain

Solo 1: verse chords (Am D C B, F G F E)

E----------------------------|------------------------|-------------13--12--10-----
B-------------13--12---------|-15--13-----------------|-13--12--10--------------13-
G-14--12--14----------14--12-|---------14--12---------|----------------------------
D----------------------------|-----------------14--12-|----------------------------
A----------------------------|------------------------|----------------------------
E----------------------------|------------------------|----------------------------

-------------------|*12-12-12-12-10-12-12-12-12-10-|-12-12-12-12-10-12-12-12-12-10-
-12--10------------|-------------------------------|-------------------------------
---------12--9--12-|-------------------------------|-------------------------------
-------------------|-------------------------------|-------------------------------
-------------------|-------------------------------|-------------------------------
-------------------|-------------------------------|-------------------------------

-12b--10--12--10-----10-|-------------------------
------------------13----|-13b--12--13--12---------
------------------------|------------------14-----
------------------------|-------------------------
------------------------|-------------------------
------------------------|-------------------------
*I think he might play this note more than 4 times. I think he's playing it 5 times. 
 So just listen close and decide for yourself

SECOND VERSE and BRIDGE: (same chords as first):
She was looking like a Roman
She was cooking it with fire
She was talking right to me
And i couldn't unglue me
Though I am no Duke of Earl you are my chatelaine
I love the way the world drives you insane

CHORUS

INTRO

SOLO 2: bridge and chorus chords

Then play chorus chords with just **BGVs

end on: Am C F


*I think he does this:
  (F)
E--1--1--1--1--1--1--1--1-
B--1--1--1--1--3--3--3--3- <-- play (3) with your pinky
G--2--2--2--2--2--2--2--2-
D--3--3--3--3-------------
A------------------------- then  back to Fm
E-------------------------

D/F# (2 ways): 
-2-----
-3-----
-2-----
-0-----
-0---5-
-2---2-


**Background Vocals


- Back to Main Tab Page -

- Suggest a Tab / Correction -
(Sign up to the message board, post it in the appropriate section, thanks!)