Band Bio | Forum | Music | Images | Links | Web Team    
Discopedia | Lyrics | Gigography | Guitar Tabs | Gallery    

 

= Frank Black Tab =
- Back to Main Tab Page -

Download the song directly here (TXT file) :
www.FrankBlack.net/tabs/txt/smyt-nadine.txt


Frank Black and the Catholics
Song: Nadine
Album: Show Me Your Tears
Tabbed by Forum Member: speedy m (Mike Velonas)

Intro/Verse
Lyrics over this:
e-----------------------------------------------------------
b-----------------------------------------------------------
g-----------------------------------------------------------
d-----------------------------------------------------------
a---2-2-2-2-2-2---2-2-2-2-2-2---2-2-2-2-2-2---2-2-2-2-2-2---
e---0-0-0-2-2-2---0-0-0-2-2-2---0-0-0-2-2-2---0-0-0-2-2-2---

e-----------------------------------------------------------
b-----------------------------------------------------------
g-----------------------------------------------------------
d-----------------------------------------------------------
a---2-2-2-2-2-2---2-2-2-2-2-2---2-2-2-2-2-2---2-2-2-2-2-2---
e---0-0-0-2-2-2---0-0-0-2-2-2---0-0-0-2-2-2---0-0-0-2-2-2---
       

e-----------------------------------------------------------
b-----------------------------------------------------------
g-----------------------------------------------------------
d---2-2-2-2-2-2---2-2-2-2-2-2-------------------------------
a---0-0-0---------0-0-0---------2-2-2-2-2-2---2-2-2-2-2-2---
e---------0-0-0---------0-0-0---0-0-0-2-2-2---0-0-0-2-2-2---

e------------------------------------------
b------------------------------------------
g------------------------------------------
d---4-4-4-4-4------------------------------
a---2-2-2-2-2--2-2-2-2-2-2---2-2-2-2-2-2---
e--------------0-0-0-2-2-2---0-0-0-2-2-2---

There goes Nadine
Head to toe in black
There goes Nadine
Head to toe in black
When I see Nadine
I want that

Will she let me in 
Underneath her clothes
Will she let me in 
Underneath her clothes
That girl got skin
Like a ghost

There goes Nadine
Nadine Nadine
There goes Nadine
Nadine Nadine
There goes Nadine

CHORUS

           Am   Am/F#   Em     D
   I think that witchy lady
 
      Am      m/F#    Em       D
   Is cookin up some spell

   Am      Am/F#     Em
   When she walks on by you know

      A               B
   I love the way she smells


Verse

She has a big gray car
She could take me for a ride
She has a big gray car
She could take me for a ride
Maybe we'll park
And I'll drive


Outro is the 2-2-2-2-2-2 thing over and over
             0-0-0-2-2-2

 Am/F#
e-----
b--1--
g--2--
d--2--
a--0--
e--2--

- Back to Main Tab Page -

- Suggest a Tab / Correction -
(Sign up to the message board, post it in the appropriate section, thanks!)