Band Bio | Forum | Music | Images | Links | Web Team    
Discopedia | Lyrics | Gigography | Guitar Tabs | Gallery    

 

= Frank Black Tab =
- Back to Main Tab Page -

Download the song directly here (TXT file) :
www.FrankBlack.net/tabs/txt/tcor-idontwanttohurtyou.txt


Frank Black
Song: I Donít Want to Hurt You (Every Single Time)
Album: the Cult of Ray
Tabbed by: Derek (ProverbialCereal)


[INTRO]

F5  D5  Bb5 (2x)


[LEAD] **CAPO 3rd Fret**

e---------2------0----------------------------
B--------------3---2----------3---------------
G------2-----2-------0------0-----------------
D---0---------------------4-------------0-----
A-----------------------2------------2-----4--
E---------------------------------3-----------
    F                  Dm         Bb        
   (D)                (Bm)       (G)       <--- formation      


e-------3-2-0h2p0------------------------------0--
B------------------3------------3--------------0--
G----2---------------2--------0------------0------
D--0------------------------4------------0--------
A-------------------------2-----------------------
E------------------------------------3------------
   F                      Dm         Bb


[VERSE]

A7sus4                Ab9
     I can`t find my way
A             G     Bb
 My vision is oh so blurred
A7sus4                     Ab9
     I was wishing for the day
A                   G        Bb
 When I didn`t even know one word


[CHORUS]

 F                Dm   Bb 
  I don`t want to hurt you
 F              Dm       Bb    
  Not every single time, No
 F               Dm    
  I just seem to hurt you
 C              A7sus4
  Every single time


[VERSE 2]
                     Ab9
 I wish you could be what`s her name
 A            G       Bb
  And I could be King Kong
 A7sus4                        Ab9
     But the chorus was pretty much the same
 A            G          Bb
  Everytime I wrote this song


[CHORUS]

 F                Dm   Bb 
  I don`t want to hurt you
 F              Dm       Bb    
  Not every single time, No
 F               Asus     
  I just seem to hurt you
 F               Asus     
  I just seem to hurt you
 C              
  Every single time


[BRIDGE] (in 5/4 time)

 F               F/E                Dm  
  I started this lesson in depravity
          Bb                          Bb/A           G  
  And now we`re falling apart in this lack of gravity
         F               F/E               Dm
  And my heart is just a muscle in a cavity
         Bb
  But it hurts so bad
 Bb/A      G                 C
   And I`m trying to say I`m definitely blind


[structure of the rest of the song]:


 CHORUS

   SOLO (with verse chords)
E|---------------|--------5----5h6p5------5--|-5h6p5-----5--6---------
B|-3-------------|-----5---------------8-----|--------8---------------
G|----4----------|--6------------------------|------------------7--7--
D|-------5--5/7--|---------------------------|------------------------
A|---------------|---------------------------|------------------------
E|---------------|---------------------------|------------------------


E|--7-7-7---12-12-12--|-12h13p12--------------12-----|-----------------
B|--------------------|-----------15--14--15------10-|--10h11p10-------
G|--------------------|------------------------------|------------12---
D|--------------------|------------------------------|-----------------
A|--------------------|------------------------------|-----------------
E|--------------------|------------------------------|-----------------


E|----------13--------13--------13--------13---------
B|--10/11--------11--------10------------------------
G|-----------------------------------12--------10/---
D|---------------------------------------------------
A|---------------------------------------------------
E|---------------------------------------------------


  BRIDGE

  CHORUS


[ENDING CHORUS]

 F  F/E              Dm   Bb
     I donít want to hurt you,
 F     F/E          Dm    Bb
   Not every single time, no
 F               Asus
  I just seem to hurt you
 F               Asus
  I just seem to hurt you
 F  F/E         Asus
  I donít wanna hurt you, no
 C             F
  Every single time

________________________________________________________________________
CHORDS He doesnít hit all the strings on some chords (every single time) 

F5   D5  Bb5  A7sus4  Ab9   A    G    Bb   F   Dm  Asus   C   F/E  Bb/A          
-----------------3-----0----0----3----6----1----5----0----0------------
-----------------3-----3----2----3----6----1----6----3----1------------
-----------------3-----2----2----4----7----2----7----2----0------------
-----7----3------2-----3----2----5----8----3----7----2----2---------8--
-3---5----1------0-----0----0----5----8----3----5----0----3----3----8--
-1-------------------------------3----6----1-------------------0----5--

Iím not quite sure if some of these chord names are correct. 

Lyle uses a capo, but this doesn't affect the way the solo is tabbed. 

symbols for lead:
h = hammer on
p = pull off
/ = slide

- Back to Main Tab Page -

- Suggest a Tab / Correction -
(Sign up to the message board, post it in the appropriate section, thanks!)