Band Bio | Forum | Music | Images | Links | Web Team    
Discopedia | Lyrics | Gigography | Guitar Tabs | Gallery    

 

= Frank Black Tab =
- Back to Main Tab Page -

Download the song directly here (TXT file) :
www.FrankBlack.net/tabs/txt/toty-fiddleriddle.txt


Frank Black
Teenager of the Year
 1994 4AD/Elektra 
Fiddle Riddle
tabbed by: Derek (proverbialcereal@msn.com)

  SOLO
E--7--8--7-------------------|--------------------------
B-----------10--8--10--10\12-|-------------8------------
G----------------------------|--7--9--10-------7h9--7---
D----------------------------|--------------------------
A----------------------------|--------------------------
E----------------------------|--------------------------


---------------------|-------------------------------
---------------------|---------7--8--10--8--7--8-8---
---------------------|--7--9-------------------------
--9--10--12--7\9--10-|-------------------------------
---------------------|-------------------------------
---------------------|-------------------------------


  SOLO 2
E--7---5---3---5--|-------------------------------------------
B-----------------|--10--8--7-------7--8--10--8---------------
G--7---5---4---5--|-------------9-----------------9-----------
D-----------------|------------------------------------9--10--
A-----------------|-------------------------------------------
E-----------------|-------------------------------------------


--3--5-\-7--|----------------------------------|-------------
------------|--7--8--10------------------------|-----10------
--4--5-\-7--|------------9------7--7\9---7--5--|--7------8---
------------|---------------10-----------------|-------------
------------|----------------------------------|-------------
------------|----------------------------------|-------------


---------------------8----
--------------------------
--9--10--12---------------
-------------10-----------
--------------------------
--------------------------

 
  ENDING
E-------7--------7------------7--------7--------7-----------------------
B-8--------8--------8------------8--------8-----------8------8-----8--8-
G----7--------7--------7---6--------6--------6-----7------------7--9----
D---------------------------------------------------------10----------9-
A-----------------------------------------------------------------------
E-----------------------------------------------------------------------

And these are the chords the piano plays which can also be played on the guitar 
of course. These were transcribed by: anabel@telnet.com.ar

Intro: C - C - Dm - C - B - C
Verse: C - D - Em - F - G - F (2x)
Bridge: Cmaj7 - F - C - G
Chorus: C - A - Dm - F
Inter: C -  F - F# (2x)

- Back to Main Tab Page -

- Suggest a Tab / Correction -
(Sign up to the message board, post it in the appropriate section, thanks!)