Band Bio | Forum | Music | Images | Links | Web Team    
Discopedia | Lyrics | Gigography | Guitar Tabs | Gallery    

 

= Frank Black Tab =
- Back to Main Tab Page -

Download the song directly here (TXT file) :
www.FrankBlack.net/tabs/txt/toty-freedomrock.txt


Frank Black
Song: Freedom Rock
Album: Teenager of the Year
Tabbed by: Derek (proverbialcereal@msn.com)

INTRO: B  D  E  C  F#  F  (2nd and 4th times play fill)

FILL:
E-2------1---------
B---2------1-------
G-----3------2-----
D--------------3---
A------------------
E------------------
  F#     F

rad riff:
E-----2-----2-----3-----3-----3--------2-----2---2------2-----2---2--
B-0-0---0-0---0-0---0-0---0-0---0------------------------------------
G---------------------------------------------------3-3---3-3---3----
D----------------------------------0-0---0-0---0---------------------
A--------------------------------------------------------------------
E--------------------------------------------------------------------

after playing rad riff once, play a B, then play rad riff again then 
go into verse: 

VERSE:
Bm          G                \ 
 My name is Chip              \ 
D             F#               \ 
 And I'm different              \(play rad riff during this part)
Bm          G                   /
 I don't conform               /
         D            F#      /
I wear a different uniform   /

G               C
 I'm out of the blue
B                C
 And so you are, too
D  Dsus        D         E            Cmaj7  G#  G
   Let me sing about one thing that's clear
            C
That nobody owns
B                C
 The pleasure of tones
D  Dsus         D        E       Cmaj7   G#
   That belongs to a guy with no ear

Bass plays: 
A--------------------------3-3-3-3---
E--3-3-3-3-3-3-3-3-3-0-0-0----------- 
       ^piano plays a G chord during this part

They tried to give me advice
Down at the record shop
I said sit down boys
This may come as a shock
What's all I listen to
It's all freedom rock

    C       G     C
How can you free me 
            G     C
How can you free me <--3x
         B D E            C  F# F
When I'm free? whoo whoo!
     B D E C (fill)  B D E C F# F
I am free


My name is Chip
And I'm different              
I don't conform               
I wear a different uniform   

I'm out of the blue
And so you are, too
Let me sing about one thing that's clear

SOLO: Chords are: G C B C D E C G#  (2x)

E-----------------------------------------------------------------------
B--------------------------------------------------------------------8--
G-4--4--4--4--4h5----0--2/4--2--0--------2-2--2-2--2-2--2-2--2/4--------
D----------------------------------4*-----------------------------5-----
A-----------------------------------------------------------------------
E-----------------------------------------------------------------------


------------------------------------------------------------------------
-9--8----8-8--7-------------------------------------------------------8-
-----------------9--9---0--2/4--2--0------2-2--2-2--2-2--2-2--2/4-------
--------------------------------------4*---------------------------5----
------------------------------------------------------------------------
------------------------------------------------------------------------
*Lyle uses a whammie bar on this note. If you donít have one, bend alot.
h = hammer on
/ = slide

That nobody owns
The pleasure of tones
That belongs to a guy with no ear

End on Cmaj7


Cmaj7:  Dsus:
E-0-    E-3-
B-0-    B-3-
G-0-    G-2-
D-2-    D-0-
A-3-    A---
E---    E---



- Back to Main Tab Page -

- Suggest a Tab / Correction -
(Sign up to the message board, post it in the appropriate section, thanks!)