Band Bio | Forum | Music | Images | Links | Web Team    
Discopedia | Lyrics | Gigography | Guitar Tabs | Gallery    

 

= Frank Black Tab =
- Back to Main Tab Page -

Download the song directly here (TXT file) :
www.FrankBlack.net/tabs/txt/toty-whitenoisemaker.txt


Frank Black
Song: White Noise Maker   
Album: Teenager of the Year
tabbed by: stephensolo@hotmail.com

CHORDS USED:      
   D#    A#m    F#    Bm*    B*    F#m*    BI    C#    D#m   E    D*
E-6------6-----2------4-----9------2------2-----4-----6-----0----4          
B-8------6-----2------3-----7------4------4-----6-----7-----0----3       
G-8------6-----3------x-----8------2------4-----6-----8-----1----2      
D-8------8-----4------4-----x------2------4-----6-----8-----2----0       
A-6------8-----4------2-----9------4------2-----4-----6-----2----0        
E-6------6-----2------2-----7------2------x-----x-----6-----0----x

   D      BII     Bm  
E2-------7-------2
B-3-------7-------3
G-2-------8-------4
D-0-------9-------4
A-0-------9-------2
E-0-------7-------2      

VERSE:
D#                         A#m
You know I hear a lot of talk
F#                              Bm*
So Im headed for the stereo store
F#                      D#
To get a white noise maker
                   BII..B*  
And turn it up to ten...
---------
REFRAIN:
F#m*
Or maybe the interior
F#m*
Of somewhere like Siberia
           D#
Yeah, the Yak
    BI      C#
Is back again
CHORUS:
F#             C#            D#m  B       C# 
Like harvest moon, oer  my head, yes it was
F#             C#             D#m          B          C#    
That billboard prose, shining on me, and it shines because
F#             C#         B       Bm
Its been so long since my Telstar  
F#         E             D  D*
I hope it crashes in the sea
-------
SOLO:
E----------------------------------------------------------------------
B---------------------------------5-------9--711b11------11-----------
G-8b8------6b6------------46-----76----------------11-13b11h13p11-
D---------8--------4--67---------------------------------------------
A----------------------------------------------------------------------
E----------------------------------------------------------------------

E-------------------------------------14b14----------------------------
B------------------------------1412-----------------------------------
G--------------------111311------------------------------------------
D13--11h-13p-11------------------------------------------------------
A----------------14----------------------------------------------------
E----------------------------------------------------------------------

AFTER SOLO:

REFRAIN,

VERSE,

CHORUS


(Note: b=bend up; h=hammer on; p=pull off)




- Back to Main Tab Page -

- Suggest a Tab / Correction -
(Sign up to the message board, post it in the appropriate section, thanks!)